ISO-10303-21;
HEADER;
/* Generated by software containing ST-Developer
 * from STEP Tools, Inc. (www.steptools.com) 
 */
/* OPTION: using custom schema-name function */

FILE_DESCRIPTION(
/* description */ (''),
/* implementation_level */ '2;1');

FILE_NAME(
/* name */ 'BUCF4C~1',
/* time_stamp */ '2025-09-11T12:25:37+02:00',
/* author */ (''),
/* organization */ (''),
/* preprocessor_version */ 'ST-DEVELOPER v16.5',
/* originating_system */ '',
/* authorisation */ '');

FILE_SCHEMA (('CONFIG_CONTROL_DESIGN'));
ENDSEC;

DATA;
#10=SHAPE_REPRESENTATION_RELATIONSHIP('','',#234,#12);
#11=MANIFOLD_SOLID_BREP('brep_1',#13);
#12=ADVANCED_BREP_SHAPE_REPRESENTATION('brep_rep_0',(#11,#245),#233);
#13=CLOSED_SHELL('',(#14,#15,#16,#17,#18,#19,#20,#21,#22));
#14=ADVANCED_FACE('',(#23),#142,.T.);
#15=ADVANCED_FACE('',(#24),#139,.T.);
#16=ADVANCED_FACE('',(#25),#143,.T.);
#17=ADVANCED_FACE('',(#26),#144,.T.);
#18=ADVANCED_FACE('',(#27),#140,.T.);
#19=ADVANCED_FACE('',(#28),#141,.T.);
#20=ADVANCED_FACE('',(#29),#145,.T.);
#21=ADVANCED_FACE('',(#30),#146,.T.);
#22=ADVANCED_FACE('',(#31),#147,.T.);
#23=FACE_OUTER_BOUND('',#32,.T.);
#24=FACE_OUTER_BOUND('',#33,.T.);
#25=FACE_OUTER_BOUND('',#34,.T.);
#26=FACE_OUTER_BOUND('',#35,.T.);
#27=FACE_OUTER_BOUND('',#36,.T.);
#28=FACE_OUTER_BOUND('',#37,.T.);
#29=FACE_OUTER_BOUND('',#38,.T.);
#30=FACE_OUTER_BOUND('',#39,.T.);
#31=FACE_OUTER_BOUND('',#40,.T.);
#32=EDGE_LOOP('',(#41,#42,#43,#44,#45,#46,#47));
#33=EDGE_LOOP('',(#48,#49,#50,#51));
#34=EDGE_LOOP('',(#52,#53,#54,#55));
#35=EDGE_LOOP('',(#56,#57,#58,#59));
#36=EDGE_LOOP('',(#60,#61,#62,#63));
#37=EDGE_LOOP('',(#64,#65,#66,#67));
#38=EDGE_LOOP('',(#68,#69,#70,#71));
#39=EDGE_LOOP('',(#72,#73,#74,#75));
#40=EDGE_LOOP('',(#76,#77,#78,#79,#80,#81,#82));
#41=ORIENTED_EDGE('',*,*,#86,.F.);
#42=ORIENTED_EDGE('',*,*,#85,.F.);
#43=ORIENTED_EDGE('',*,*,#84,.F.);
#44=ORIENTED_EDGE('',*,*,#83,.F.);
#45=ORIENTED_EDGE('',*,*,#87,.F.);
#46=ORIENTED_EDGE('',*,*,#99,.F.);
#47=ORIENTED_EDGE('',*,*,#95,.F.);
#48=ORIENTED_EDGE('',*,*,#87,.T.);
#49=ORIENTED_EDGE('',*,*,#88,.T.);
#50=ORIENTED_EDGE('',*,*,#89,.F.);
#51=ORIENTED_EDGE('',*,*,#90,.F.);
#52=ORIENTED_EDGE('',*,*,#92,.T.);
#53=ORIENTED_EDGE('',*,*,#91,.T.);
#54=ORIENTED_EDGE('',*,*,#88,.F.);
#55=ORIENTED_EDGE('',*,*,#83,.T.);
#56=ORIENTED_EDGE('',*,*,#94,.T.);
#57=ORIENTED_EDGE('',*,*,#93,.T.);
#58=ORIENTED_EDGE('',*,*,#92,.F.);
#59=ORIENTED_EDGE('',*,*,#84,.T.);
#60=ORIENTED_EDGE('',*,*,#95,.T.);
#61=ORIENTED_EDGE('',*,*,#96,.T.);
#62=ORIENTED_EDGE('',*,*,#97,.F.);
#63=ORIENTED_EDGE('',*,*,#98,.F.);
#64=ORIENTED_EDGE('',*,*,#99,.T.);
#65=ORIENTED_EDGE('',*,*,#90,.T.);
#66=ORIENTED_EDGE('',*,*,#100,.F.);
#67=ORIENTED_EDGE('',*,*,#96,.F.);
#68=ORIENTED_EDGE('',*,*,#85,.T.);
#69=ORIENTED_EDGE('',*,*,#101,.T.);
#70=ORIENTED_EDGE('',*,*,#102,.F.);
#71=ORIENTED_EDGE('',*,*,#94,.F.);
#72=ORIENTED_EDGE('',*,*,#86,.T.);
#73=ORIENTED_EDGE('',*,*,#98,.T.);
#74=ORIENTED_EDGE('',*,*,#103,.F.);
#75=ORIENTED_EDGE('',*,*,#101,.F.);
#76=ORIENTED_EDGE('',*,*,#97,.T.);
#77=ORIENTED_EDGE('',*,*,#100,.T.);
#78=ORIENTED_EDGE('',*,*,#89,.T.);
#79=ORIENTED_EDGE('',*,*,#91,.F.);
#80=ORIENTED_EDGE('',*,*,#93,.F.);
#81=ORIENTED_EDGE('',*,*,#102,.T.);
#82=ORIENTED_EDGE('',*,*,#103,.T.);
#83=EDGE_CURVE('',#128,#129,#114,.T.);
#84=EDGE_CURVE('',#129,#130,#115,.T.);
#85=EDGE_CURVE('',#130,#131,#116,.T.);
#86=EDGE_CURVE('',#131,#125,#117,.T.);
#87=EDGE_CURVE('',#127,#128,#104,.T.);
#88=EDGE_CURVE('',#128,#132,#105,.T.);
#89=EDGE_CURVE('',#133,#132,#106,.T.);
#90=EDGE_CURVE('',#127,#133,#107,.T.);
#91=EDGE_CURVE('',#134,#132,#118,.T.);
#92=EDGE_CURVE('',#129,#134,#119,.T.);
#93=EDGE_CURVE('',#135,#134,#120,.T.);
#94=EDGE_CURVE('',#130,#135,#121,.T.);
#95=EDGE_CURVE('',#125,#126,#108,.T.);
#96=EDGE_CURVE('',#126,#136,#109,.T.);
#97=EDGE_CURVE('',#137,#136,#110,.T.);
#98=EDGE_CURVE('',#125,#137,#111,.T.);
#99=EDGE_CURVE('',#126,#127,#112,.T.);
#100=EDGE_CURVE('',#136,#133,#113,.T.);
#101=EDGE_CURVE('',#131,#138,#122,.T.);
#102=EDGE_CURVE('',#135,#138,#123,.T.);
#103=EDGE_CURVE('',#138,#137,#124,.T.);
#104=(
BOUNDED_CURVE()
B_SPLINE_CURVE(2,(#291,#292,#293),.UNSPECIFIED.,.F.,.F.)
B_SPLINE_CURVE_WITH_KNOTS((3,3),(0.,42.2625373042215),.UNSPECIFIED.)
CURVE()
GEOMETRIC_REPRESENTATION_ITEM()
RATIONAL_B_SPLINE_CURVE((1.,0.753132689685699,1.))
REPRESENTATION_ITEM('')
);
#105=(
BOUNDED_CURVE()
B_SPLINE_CURVE(1,(#294,#295),.UNSPECIFIED.,.F.,.F.)
B_SPLINE_CURVE_WITH_KNOTS((2,2),(0.,1300.),.UNSPECIFIED.)
CURVE()
GEOMETRIC_REPRESENTATION_ITEM()
RATIONAL_B_SPLINE_CURVE((1.,1.))
REPRESENTATION_ITEM('')
);
#106=(
BOUNDED_CURVE()
B_SPLINE_CURVE(2,(#296,#297,#298),.UNSPECIFIED.,.F.,.F.)
B_SPLINE_CURVE_WITH_KNOTS((3,3),(0.,42.2625373042215),.UNSPECIFIED.)
CURVE()
GEOMETRIC_REPRESENTATION_ITEM()
RATIONAL_B_SPLINE_CURVE((1.,0.753132689685699,1.))
REPRESENTATION_ITEM('')
);
#107=(
BOUNDED_CURVE()
B_SPLINE_CURVE(1,(#299,#300),.UNSPECIFIED.,.F.,.F.)
B_SPLINE_CURVE_WITH_KNOTS((2,2),(0.,1300.),.UNSPECIFIED.)
CURVE()
GEOMETRIC_REPRESENTATION_ITEM()
RATIONAL_B_SPLINE_CURVE((1.,1.))
REPRESENTATION_ITEM('')
);
#108=(
BOUNDED_CURVE()
B_SPLINE_CURVE(2,(#309,#310,#311,#312,#313),.UNSPECIFIED.,.F.,.F.)
B_SPLINE_CURVE_WITH_KNOTS((3,2,3),(0.,35.7936084205713,71.5872168411426),
 .UNSPECIFIED.)
CURVE()
GEOMETRIC_REPRESENTATION_ITEM()
RATIONAL_B_SPLINE_CURVE((1.,0.915597587624499,1.,0.915597587624499,1.))
REPRESENTATION_ITEM('')
);
#109=(
BOUNDED_CURVE()
B_SPLINE_CURVE(1,(#314,#315),.UNSPECIFIED.,.F.,.F.)
B_SPLINE_CURVE_WITH_KNOTS((2,2),(0.,1300.),.UNSPECIFIED.)
CURVE()
GEOMETRIC_REPRESENTATION_ITEM()
RATIONAL_B_SPLINE_CURVE((1.,1.))
REPRESENTATION_ITEM('')
);
#110=(
BOUNDED_CURVE()
B_SPLINE_CURVE(2,(#316,#317,#318,#319,#320),.UNSPECIFIED.,.F.,.F.)
B_SPLINE_CURVE_WITH_KNOTS((3,2,3),(0.,35.7936084205713,71.5872168411426),
 .UNSPECIFIED.)
CURVE()
GEOMETRIC_REPRESENTATION_ITEM()
RATIONAL_B_SPLINE_CURVE((1.,0.915597587624499,1.,0.915597587624499,1.))
REPRESENTATION_ITEM('')
);
#111=(
BOUNDED_CURVE()
B_SPLINE_CURVE(1,(#321,#322),.UNSPECIFIED.,.F.,.F.)
B_SPLINE_CURVE_WITH_KNOTS((2,2),(0.,1300.),.UNSPECIFIED.)
CURVE()
GEOMETRIC_REPRESENTATION_ITEM()
RATIONAL_B_SPLINE_CURVE((1.,1.))
REPRESENTATION_ITEM('')
);
#112=(
BOUNDED_CURVE()
B_SPLINE_CURVE(2,(#323,#324,#325),.UNSPECIFIED.,.F.,.F.)
B_SPLINE_CURVE_WITH_KNOTS((3,3),(0.,44.9360104049857),.UNSPECIFIED.)
CURVE()
GEOMETRIC_REPRESENTATION_ITEM()
RATIONAL_B_SPLINE_CURVE((1.,0.731258172607356,1.))
REPRESENTATION_ITEM('')
);
#113=(
BOUNDED_CURVE()
B_SPLINE_CURVE(2,(#326,#327,#328),.UNSPECIFIED.,.F.,.F.)
B_SPLINE_CURVE_WITH_KNOTS((3,3),(0.,44.9360104049857),.UNSPECIFIED.)
CURVE()
GEOMETRIC_REPRESENTATION_ITEM()
RATIONAL_B_SPLINE_CURVE((1.,0.731258172607356,1.))
REPRESENTATION_ITEM('')
);
#114=B_SPLINE_CURVE_WITH_KNOTS('',1,(#283,#284),.UNSPECIFIED.,.F.,.F.,(2,
2),(0.,44.0660594053105),.UNSPECIFIED.);
#115=B_SPLINE_CURVE_WITH_KNOTS('',1,(#285,#286),.UNSPECIFIED.,.F.,.F.,(2,
2),(0.,120.),.UNSPECIFIED.);
#116=B_SPLINE_CURVE_WITH_KNOTS('',1,(#287,#288),.UNSPECIFIED.,.F.,.F.,(2,
2),(0.,150.),.UNSPECIFIED.);
#117=B_SPLINE_CURVE_WITH_KNOTS('',1,(#289,#290),.UNSPECIFIED.,.F.,.F.,(2,
2),(0.,23.8811356597839),.UNSPECIFIED.);
#118=B_SPLINE_CURVE_WITH_KNOTS('',1,(#301,#302),.UNSPECIFIED.,.F.,.F.,(2,
2),(0.,44.0660594053334),.UNSPECIFIED.);
#119=B_SPLINE_CURVE_WITH_KNOTS('',1,(#303,#304),.UNSPECIFIED.,.F.,.F.,(2,
2),(0.,1300.),.UNSPECIFIED.);
#120=B_SPLINE_CURVE_WITH_KNOTS('',1,(#305,#306),.UNSPECIFIED.,.F.,.F.,(2,
2),(0.,120.),.UNSPECIFIED.);
#121=B_SPLINE_CURVE_WITH_KNOTS('',1,(#307,#308),.UNSPECIFIED.,.F.,.F.,(2,
2),(0.,1300.),.UNSPECIFIED.);
#122=B_SPLINE_CURVE_WITH_KNOTS('',1,(#329,#330),.UNSPECIFIED.,.F.,.F.,(2,
2),(0.,1300.),.UNSPECIFIED.);
#123=B_SPLINE_CURVE_WITH_KNOTS('',1,(#331,#332),.UNSPECIFIED.,.F.,.F.,(2,
2),(0.,150.),.UNSPECIFIED.);
#124=B_SPLINE_CURVE_WITH_KNOTS('',1,(#333,#334),.UNSPECIFIED.,.F.,.F.,(2,
2),(0.,23.8811356597871),.UNSPECIFIED.);
#125=VERTEX_POINT('',#269);
#126=VERTEX_POINT('',#270);
#127=VERTEX_POINT('',#271);
#128=VERTEX_POINT('',#272);
#129=VERTEX_POINT('',#273);
#130=VERTEX_POINT('',#274);
#131=VERTEX_POINT('',#275);
#132=VERTEX_POINT('',#276);
#133=VERTEX_POINT('',#277);
#134=VERTEX_POINT('',#278);
#135=VERTEX_POINT('',#279);
#136=VERTEX_POINT('',#280);
#137=VERTEX_POINT('',#281);
#138=VERTEX_POINT('',#282);
#139=CYLINDRICAL_SURFACE('',#237,29.4313404019114);
#140=CYLINDRICAL_SURFACE('',#240,43.2493950051948);
#141=CYLINDRICAL_SURFACE('',#241,29.9321318260179);
#142=PLANE('',#236);
#143=PLANE('',#238);
#144=PLANE('',#239);
#145=PLANE('',#242);
#146=PLANE('',#243);
#147=PLANE('',#244);
#148=SHAPE_DEFINITION_REPRESENTATION(#149,#234);
#149=PRODUCT_DEFINITION_SHAPE('Document','',#151);
#150=PRODUCT_DEFINITION_CONTEXT('3D Mechanical Parts',#223,'design');
#151=PRODUCT_DEFINITION('A','First version',#193,#150);
#152=DATE_TIME_ROLE('classification_date');
#153=DATE_TIME_ROLE('creation_date');
#154=APPLIED_DATE_AND_TIME_ASSIGNMENT(#178,#152,(#157));
#155=APPLIED_DATE_AND_TIME_ASSIGNMENT(#180,#153,(#151));
#156=SECURITY_CLASSIFICATION_LEVEL('unclassified');
#157=SECURITY_CLASSIFICATION('A','Security for version',#156);
#158=APPLIED_SECURITY_CLASSIFICATION_ASSIGNMENT(#157,(#193));
#159=APPROVAL_ROLE('Version approval');
#160=APPROVAL_ROLE('Version Security approval');
#161=APPROVAL_ROLE('Definition approval');
#162=APPROVAL_PERSON_ORGANIZATION(#211,#187,#159);
#163=APPROVAL_PERSON_ORGANIZATION(#212,#188,#160);
#164=APPROVAL_PERSON_ORGANIZATION(#215,#189,#161);
#165=COORDINATED_UNIVERSAL_TIME_OFFSET(5,0,.BEHIND.);
#166=LOCAL_TIME(0,0,0.,#165);
#167=LOCAL_TIME(0,0,0.,#165);
#168=LOCAL_TIME(0,0,0.,#165);
#169=LOCAL_TIME(0,0,0.,#165);
#170=LOCAL_TIME(0,0,0.,#165);
#171=CALENDAR_DATE(1999,1,1);
#172=CALENDAR_DATE(1999,1,1);
#173=CALENDAR_DATE(1999,1,1);
#174=CALENDAR_DATE(1999,1,1);
#175=CALENDAR_DATE(1999,1,1);
#176=DATE_AND_TIME(#171,#166);
#177=DATE_AND_TIME(#172,#167);
#178=DATE_AND_TIME(#173,#168);
#179=DATE_AND_TIME(#174,#169);
#180=DATE_AND_TIME(#175,#170);
#181=APPROVAL_DATE_TIME(#176,#187);
#182=APPROVAL_DATE_TIME(#177,#188);
#183=APPROVAL_DATE_TIME(#179,#189);
#184=APPROVAL_STATUS('not_yet_approved');
#185=APPROVAL_STATUS('not_yet_approved');
#186=APPROVAL_STATUS('approved');
#187=APPROVAL(#184,'Version approval');
#188=APPROVAL(#185,'Version Security approval');
#189=APPROVAL(#186,'Definition approval');
#190=APPLIED_APPROVAL_ASSIGNMENT(#187,(#193));
#191=APPLIED_APPROVAL_ASSIGNMENT(#188,(#157));
#192=APPLIED_APPROVAL_ASSIGNMENT(#189,(#151));
#193=PRODUCT_DEFINITION_FORMATION_WITH_SPECIFIED_SOURCE('A',
'First version',#225,.MADE.);
#194=PERSON_AND_ORGANIZATION_ROLE('design_owner');
#195=PERSON_AND_ORGANIZATION_ROLE('creator');
#196=PERSON_AND_ORGANIZATION_ROLE('design_supplier');
#197=PERSON_AND_ORGANIZATION_ROLE('classification_officer');
#198=PERSON_AND_ORGANIZATION_ROLE('creator');
#199=ORGANIZATION('STI','lab','lab');
#200=ORGANIZATION('STI','unknown','unknown');
#201=ORGANIZATION('STI','unknown','unknown');
#202=ORGANIZATION('STI','unknown','unknown');
#203=ORGANIZATION('STI','unknown','unknown');
#204=ORGANIZATION('STI','unknown','unknown');
#205=ORGANIZATION('STI','unknown','unknown');
#206=PERSON('1','Box','vc60',$,$,$);
#207=PERSON('2','last','first',$,$,$);
#208=PERSON('3','President','Mr.',$,$,$);
#209=PERSON_AND_ORGANIZATION(#206,#199);
#210=PERSON_AND_ORGANIZATION(#207,#200);
#211=PERSON_AND_ORGANIZATION(#208,#201);
#212=PERSON_AND_ORGANIZATION(#208,#202);
#213=PERSON_AND_ORGANIZATION(#208,#203);
#214=PERSON_AND_ORGANIZATION(#207,#204);
#215=PERSON_AND_ORGANIZATION(#208,#205);
#216=APPLIED_PERSON_AND_ORGANIZATION_ASSIGNMENT(#209,#194,(#225));
#217=APPLIED_PERSON_AND_ORGANIZATION_ASSIGNMENT(#210,#195,(#193));
#218=APPLIED_PERSON_AND_ORGANIZATION_ASSIGNMENT(#210,#196,(#193));
#219=APPLIED_PERSON_AND_ORGANIZATION_ASSIGNMENT(#213,#197,(#157));
#220=APPLIED_PERSON_AND_ORGANIZATION_ASSIGNMENT(#214,#198,(#151));
#221=PRODUCT_RELATED_PRODUCT_CATEGORY('detail','detail',(#225));
#222=APPLICATION_PROTOCOL_DEFINITION('International Standard',
'config_control_design',1994,#223);
#223=APPLICATION_CONTEXT(
'configuration controlled 3d designs of mechanical parts and assemblie
s');
#224=PRODUCT_CONTEXT('3D Mechanical Parts',#223,'mechanical');
#225=PRODUCT('Document','Document','Rhino converted to STEP',(#224));
#226=(
LENGTH_UNIT()
NAMED_UNIT(*)
SI_UNIT(.MILLI.,.METRE.)
);
#227=(
NAMED_UNIT(*)
PLANE_ANGLE_UNIT()
SI_UNIT($,.RADIAN.)
);
#228=DIMENSIONAL_EXPONENTS(0.,0.,0.,0.,0.,0.,0.);
#229=PLANE_ANGLE_MEASURE_WITH_UNIT(PLANE_ANGLE_MEASURE(0.01745329252),#227);
#230=(
CONVERSION_BASED_UNIT('DEGREES',#229)
NAMED_UNIT(#228)
PLANE_ANGLE_UNIT()
);
#231=(
NAMED_UNIT(*)
SI_UNIT($,.STERADIAN.)
SOLID_ANGLE_UNIT()
);
#232=UNCERTAINTY_MEASURE_WITH_UNIT(LENGTH_MEASURE(0.001),#226,
'DISTANCE_ACCURACY_VALUE',
'Maximum model space distance between geometric entities at asserted c
onnectivities');
#233=(
GEOMETRIC_REPRESENTATION_CONTEXT(3)
GLOBAL_UNCERTAINTY_ASSIGNED_CONTEXT((#232))
GLOBAL_UNIT_ASSIGNED_CONTEXT((#231,#230,#226))
REPRESENTATION_CONTEXT('ID1','3D')
);
#234=SHAPE_REPRESENTATION('Document',(#235,#245),#233);
#235=AXIS2_PLACEMENT_3D('',#259,#246,#247);
#236=AXIS2_PLACEMENT_3D('',#260,#248,$);
#237=AXIS2_PLACEMENT_3D('',#261,#249,$);
#238=AXIS2_PLACEMENT_3D('',#262,#250,$);
#239=AXIS2_PLACEMENT_3D('',#263,#251,$);
#240=AXIS2_PLACEMENT_3D('',#264,#252,$);
#241=AXIS2_PLACEMENT_3D('',#265,#253,$);
#242=AXIS2_PLACEMENT_3D('',#266,#254,$);
#243=AXIS2_PLACEMENT_3D('',#267,#255,$);
#244=AXIS2_PLACEMENT_3D('',#268,#256,$);
#245=AXIS2_PLACEMENT_3D('',#335,#257,#258);
#246=DIRECTION('',(0.,0.,1.));
#247=DIRECTION('',(1.,0.,0.));
#248=DIRECTION('',(0.,-1.,0.));
#249=DIRECTION('',(0.,-1.,0.));
#250=DIRECTION('',(0.,0.,-1.));
#251=DIRECTION('',(-1.,0.,0.));
#252=DIRECTION('',(0.,-1.,0.));
#253=DIRECTION('',(-2.98158869892794E-13,-1.,3.40058114136848E-13));
#254=DIRECTION('',(0.,0.,1.));
#255=DIRECTION('',(1.,0.,0.));
#256=DIRECTION('',(0.,1.,0.));
#257=DIRECTION('',(0.,0.,1.));
#258=DIRECTION('',(1.,0.,0.));
#259=CARTESIAN_POINT('',(0.,0.,0.));
#260=CARTESIAN_POINT('',(460.390237992679,21939.9452250797,0.844129912809336));
#261=CARTESIAN_POINT('',(534.863713705961,22589.9452250797,-125.884439545025));
#262=CARTESIAN_POINT('',(461.890237992679,21939.9452250797,-120.355870087191));
#263=CARTESIAN_POINT('',(461.890237992679,21939.9452250797,-0.355870087190965));
#264=CARTESIAN_POINT('',(610.357088219773,22589.9452250797,-67.4592178616842));
#265=CARTESIAN_POINT('',(566.238071101942,22589.9452250797,-99.494071529258));
#266=CARTESIAN_POINT('',(461.890237992679,21939.9452250797,-0.355870087190965));
#267=CARTESIAN_POINT('',(611.890237992679,21939.9452250797,-0.355870087190965));
#268=CARTESIAN_POINT('',(460.390237992679,23239.9452250797,0.844129912809336));
#269=CARTESIAN_POINT('',(611.890237992679,21939.9452250797,-24.2370057469749));
#270=CARTESIAN_POINT('',(567.159531975553,21939.9452250797,-69.5761266546507));
#271=CARTESIAN_POINT('',(536.456441763996,21939.9452250797,-96.49622736429));
#272=CARTESIAN_POINT('',(505.956297397989,21939.9452250797,-120.355870087221));
#273=CARTESIAN_POINT('',(461.890237992679,21939.9452250797,-120.355870087191));
#274=CARTESIAN_POINT('',(461.890237992679,21939.9452250797,-0.355870087190965));
#275=CARTESIAN_POINT('',(611.890237992679,21939.9452250797,-0.355870087190965));
#276=CARTESIAN_POINT('',(505.956297397989,23239.9452250797,-120.355870087221));
#277=CARTESIAN_POINT('',(536.456441763995,23239.9452250797,-96.4962273642899));
#278=CARTESIAN_POINT('',(461.890237992679,23239.9452250797,-120.355870087191));
#279=CARTESIAN_POINT('',(461.890237992679,23239.9452250797,-0.355870087190965));
#280=CARTESIAN_POINT('',(567.159531975553,23239.9452250797,-69.5761266546507));
#281=CARTESIAN_POINT('',(611.890237992679,23239.9452250797,-24.2370057469749));
#282=CARTESIAN_POINT('',(611.890237992679,23239.9452250797,-0.355870087190965));
#283=CARTESIAN_POINT('',(505.956297397989,21939.9452250797,-120.355870087221));
#284=CARTESIAN_POINT('',(461.890237992679,21939.9452250797,-120.355870087191));
#285=CARTESIAN_POINT('',(461.890237992679,21939.9452250797,-120.355870087191));
#286=CARTESIAN_POINT('',(461.890237992679,21939.9452250797,-0.355870087190965));
#287=CARTESIAN_POINT('',(461.890237992679,21939.9452250797,-0.355870087190965));
#288=CARTESIAN_POINT('',(611.890237992679,21939.9452250797,-0.355870087190965));
#289=CARTESIAN_POINT('',(611.890237992679,21939.9452250797,-0.355870087190965));
#290=CARTESIAN_POINT('',(611.890237992679,21939.9452250797,-24.2370057469749));
#291=CARTESIAN_POINT('',(536.456441763996,21939.9452250797,-96.49622736429));
#292=CARTESIAN_POINT('',(510.785555957566,21939.9452250797,-95.1049640970696));
#293=CARTESIAN_POINT('',(505.956297397989,21939.9452250797,-120.355870087221));
#294=CARTESIAN_POINT('',(505.956297397989,21939.9452250797,-120.355870087221));
#295=CARTESIAN_POINT('',(505.956297397989,23239.9452250797,-120.355870087221));
#296=CARTESIAN_POINT('',(536.456441763995,23239.9452250797,-96.4962273642899));
#297=CARTESIAN_POINT('',(510.785555957566,23239.9452250797,-95.1049640970695));
#298=CARTESIAN_POINT('',(505.956297397989,23239.9452250797,-120.355870087221));
#299=CARTESIAN_POINT('',(536.456441763996,21939.9452250797,-96.49622736429));
#300=CARTESIAN_POINT('',(536.456441763995,23239.9452250797,-96.4962273642899));
#301=CARTESIAN_POINT('',(461.890237992679,23239.9452250797,-120.355870087191));
#302=CARTESIAN_POINT('',(505.956297397989,23239.9452250797,-120.355870087221));
#303=CARTESIAN_POINT('',(461.890237992679,21939.9452250797,-120.355870087191));
#304=CARTESIAN_POINT('',(461.890237992679,23239.9452250797,-120.355870087191));
#305=CARTESIAN_POINT('',(461.890237992679,23239.9452250797,-0.355870087190965));
#306=CARTESIAN_POINT('',(461.890237992679,23239.9452250797,-120.355870087191));
#307=CARTESIAN_POINT('',(461.890237992679,21939.9452250797,-0.355870087190965));
#308=CARTESIAN_POINT('',(461.890237992679,23239.9452250797,-0.355870087190965));
#309=CARTESIAN_POINT('',(611.890237992679,21939.9452250797,-24.2370057469749));
#310=CARTESIAN_POINT('',(592.908677157324,21939.9452250797,-23.5637043526537));
#311=CARTESIAN_POINT('',(579.569271427787,21939.9452250797,-37.084549048834));
#312=CARTESIAN_POINT('',(566.229865698249,21939.9452250797,-50.605393745014));
#313=CARTESIAN_POINT('',(567.159531975553,21939.9452250797,-69.5761266546507));
#314=CARTESIAN_POINT('',(567.159531975553,21939.9452250797,-69.5761266546507));
#315=CARTESIAN_POINT('',(567.159531975553,23239.9452250797,-69.5761266546507));
#316=CARTESIAN_POINT('',(611.890237992679,23239.9452250797,-24.2370057469749));
#317=CARTESIAN_POINT('',(592.908677157324,23239.9452250797,-23.5637043526538));
#318=CARTESIAN_POINT('',(579.569271427787,23239.9452250797,-37.084549048834));
#319=CARTESIAN_POINT('',(566.229865698249,23239.9452250797,-50.605393745014));
#320=CARTESIAN_POINT('',(567.159531975553,23239.9452250797,-69.5761266546507));
#321=CARTESIAN_POINT('',(611.890237992679,21939.9452250797,-24.2370057469749));
#322=CARTESIAN_POINT('',(611.890237992679,23239.9452250797,-24.2370057469749));
#323=CARTESIAN_POINT('',(567.159531975553,21939.9452250797,-69.5761266546507));
#324=CARTESIAN_POINT('',(539.25276178309,21939.9452250797,-68.7166091660702));
#325=CARTESIAN_POINT('',(536.456441763996,21939.9452250797,-96.49622736429));
#326=CARTESIAN_POINT('',(567.159531975553,23239.9452250797,-69.5761266546507));
#327=CARTESIAN_POINT('',(539.25276178309,23239.9452250797,-68.71660916607));
#328=CARTESIAN_POINT('',(536.456441763995,23239.9452250797,-96.4962273642899));
#329=CARTESIAN_POINT('',(611.890237992679,21939.9452250797,-0.355870087190965));
#330=CARTESIAN_POINT('',(611.890237992679,23239.9452250797,-0.355870087190965));
#331=CARTESIAN_POINT('',(461.890237992679,23239.9452250797,-0.355870087190965));
#332=CARTESIAN_POINT('',(611.890237992679,23239.9452250797,-0.355870087190965));
#333=CARTESIAN_POINT('',(611.890237992679,23239.9452250797,-0.355870087190965));
#334=CARTESIAN_POINT('',(611.890237992679,23239.9452250797,-24.2370057469749));
#335=CARTESIAN_POINT('',(0.,0.,0.));
ENDSEC;
END-ISO-10303-21;
