ISO-10303-21;
HEADER;
/* Generated by software containing ST-Developer
 * from STEP Tools, Inc. (www.steptools.com) 
 */
/* OPTION: using custom schema-name function */

FILE_DESCRIPTION(
/* description */ (''),
/* implementation_level */ '2;1');

FILE_NAME(
/* name */ 'BU2003~1',
/* time_stamp */ '2025-09-11T14:05:50+02:00',
/* author */ (''),
/* organization */ (''),
/* preprocessor_version */ 'ST-DEVELOPER v16.5',
/* originating_system */ '',
/* authorisation */ '');

FILE_SCHEMA (('CONFIG_CONTROL_DESIGN'));
ENDSEC;

DATA;
#10=SHAPE_REPRESENTATION_RELATIONSHIP('','',#304,#13);
#11=MANIFOLD_SOLID_BREP('brep_1',#14);
#12=MANIFOLD_SOLID_BREP('brep_2',#15);
#13=ADVANCED_BREP_SHAPE_REPRESENTATION('brep_rep_0',(#11,#12,#321),#303);
#14=CLOSED_SHELL('',(#17,#18,#19,#20,#21,#22,#23,#24,#25));
#15=CLOSED_SHELL('',(#26,#27,#28,#29,#30,#31));
#16=FACE_BOUND('',#55,.T.);
#17=ADVANCED_FACE('',(#32),#205,.T.);
#18=ADVANCED_FACE('',(#33),#203,.T.);
#19=ADVANCED_FACE('',(#34),#206,.T.);
#20=ADVANCED_FACE('',(#35),#207,.T.);
#21=ADVANCED_FACE('',(#36),#208,.T.);
#22=ADVANCED_FACE('',(#37),#209,.T.);
#23=ADVANCED_FACE('',(#38),#210,.T.);
#24=ADVANCED_FACE('',(#39,#16),#211,.T.);
#25=ADVANCED_FACE('',(#40),#204,.T.);
#26=ADVANCED_FACE('',(#41),#212,.T.);
#27=ADVANCED_FACE('',(#42),#213,.T.);
#28=ADVANCED_FACE('',(#43),#214,.T.);
#29=ADVANCED_FACE('',(#44),#215,.T.);
#30=ADVANCED_FACE('',(#45),#216,.T.);
#31=ADVANCED_FACE('',(#46),#217,.T.);
#32=FACE_OUTER_BOUND('',#47,.T.);
#33=FACE_OUTER_BOUND('',#48,.T.);
#34=FACE_OUTER_BOUND('',#49,.T.);
#35=FACE_OUTER_BOUND('',#50,.T.);
#36=FACE_OUTER_BOUND('',#51,.T.);
#37=FACE_OUTER_BOUND('',#52,.T.);
#38=FACE_OUTER_BOUND('',#53,.T.);
#39=FACE_OUTER_BOUND('',#54,.T.);
#40=FACE_OUTER_BOUND('',#56,.T.);
#41=FACE_OUTER_BOUND('',#57,.T.);
#42=FACE_OUTER_BOUND('',#58,.T.);
#43=FACE_OUTER_BOUND('',#59,.T.);
#44=FACE_OUTER_BOUND('',#60,.T.);
#45=FACE_OUTER_BOUND('',#61,.T.);
#46=FACE_OUTER_BOUND('',#62,.T.);
#47=EDGE_LOOP('',(#63,#64));
#48=EDGE_LOOP('',(#65,#66,#67,#68));
#49=EDGE_LOOP('',(#69,#70,#71,#72));
#50=EDGE_LOOP('',(#73,#74,#75,#76));
#51=EDGE_LOOP('',(#77,#78,#79,#80));
#52=EDGE_LOOP('',(#81,#82,#83,#84));
#53=EDGE_LOOP('',(#85,#86,#87,#88));
#54=EDGE_LOOP('',(#89,#90,#91,#92));
#55=EDGE_LOOP('',(#93,#94));
#56=EDGE_LOOP('',(#95,#96,#97,#98));
#57=EDGE_LOOP('',(#99,#100,#101,#102));
#58=EDGE_LOOP('',(#103,#104,#105,#106));
#59=EDGE_LOOP('',(#107,#108,#109,#110));
#60=EDGE_LOOP('',(#111,#112,#113,#114));
#61=EDGE_LOOP('',(#115,#116,#117,#118));
#62=EDGE_LOOP('',(#119,#120,#121,#122));
#63=ORIENTED_EDGE('',*,*,#140,.F.);
#64=ORIENTED_EDGE('',*,*,#125,.F.);
#65=ORIENTED_EDGE('',*,*,#123,.F.);
#66=ORIENTED_EDGE('',*,*,#124,.T.);
#67=ORIENTED_EDGE('',*,*,#125,.T.);
#68=ORIENTED_EDGE('',*,*,#138,.F.);
#69=ORIENTED_EDGE('',*,*,#126,.T.);
#70=ORIENTED_EDGE('',*,*,#127,.T.);
#71=ORIENTED_EDGE('',*,*,#128,.F.);
#72=ORIENTED_EDGE('',*,*,#129,.F.);
#73=ORIENTED_EDGE('',*,*,#130,.T.);
#74=ORIENTED_EDGE('',*,*,#131,.T.);
#75=ORIENTED_EDGE('',*,*,#132,.F.);
#76=ORIENTED_EDGE('',*,*,#127,.F.);
#77=ORIENTED_EDGE('',*,*,#133,.T.);
#78=ORIENTED_EDGE('',*,*,#134,.T.);
#79=ORIENTED_EDGE('',*,*,#135,.F.);
#80=ORIENTED_EDGE('',*,*,#131,.F.);
#81=ORIENTED_EDGE('',*,*,#136,.T.);
#82=ORIENTED_EDGE('',*,*,#129,.T.);
#83=ORIENTED_EDGE('',*,*,#137,.F.);
#84=ORIENTED_EDGE('',*,*,#134,.F.);
#85=ORIENTED_EDGE('',*,*,#136,.F.);
#86=ORIENTED_EDGE('',*,*,#133,.F.);
#87=ORIENTED_EDGE('',*,*,#130,.F.);
#88=ORIENTED_EDGE('',*,*,#126,.F.);
#89=ORIENTED_EDGE('',*,*,#128,.T.);
#90=ORIENTED_EDGE('',*,*,#132,.T.);
#91=ORIENTED_EDGE('',*,*,#135,.T.);
#92=ORIENTED_EDGE('',*,*,#137,.T.);
#93=ORIENTED_EDGE('',*,*,#123,.T.);
#94=ORIENTED_EDGE('',*,*,#139,.T.);
#95=ORIENTED_EDGE('',*,*,#138,.T.);
#96=ORIENTED_EDGE('',*,*,#140,.T.);
#97=ORIENTED_EDGE('',*,*,#124,.F.);
#98=ORIENTED_EDGE('',*,*,#139,.F.);
#99=ORIENTED_EDGE('',*,*,#141,.T.);
#100=ORIENTED_EDGE('',*,*,#142,.T.);
#101=ORIENTED_EDGE('',*,*,#143,.F.);
#102=ORIENTED_EDGE('',*,*,#144,.F.);
#103=ORIENTED_EDGE('',*,*,#145,.T.);
#104=ORIENTED_EDGE('',*,*,#146,.T.);
#105=ORIENTED_EDGE('',*,*,#147,.F.);
#106=ORIENTED_EDGE('',*,*,#142,.F.);
#107=ORIENTED_EDGE('',*,*,#148,.T.);
#108=ORIENTED_EDGE('',*,*,#149,.T.);
#109=ORIENTED_EDGE('',*,*,#150,.F.);
#110=ORIENTED_EDGE('',*,*,#146,.F.);
#111=ORIENTED_EDGE('',*,*,#151,.T.);
#112=ORIENTED_EDGE('',*,*,#144,.T.);
#113=ORIENTED_EDGE('',*,*,#152,.F.);
#114=ORIENTED_EDGE('',*,*,#149,.F.);
#115=ORIENTED_EDGE('',*,*,#151,.F.);
#116=ORIENTED_EDGE('',*,*,#148,.F.);
#117=ORIENTED_EDGE('',*,*,#145,.F.);
#118=ORIENTED_EDGE('',*,*,#141,.F.);
#119=ORIENTED_EDGE('',*,*,#143,.T.);
#120=ORIENTED_EDGE('',*,*,#147,.T.);
#121=ORIENTED_EDGE('',*,*,#150,.T.);
#122=ORIENTED_EDGE('',*,*,#152,.T.);
#123=EDGE_CURVE('',#184,#193,#177,.T.);
#124=EDGE_CURVE('',#184,#183,#178,.T.);
#125=EDGE_CURVE('',#183,#194,#179,.T.);
#126=EDGE_CURVE('',#185,#186,#153,.T.);
#127=EDGE_CURVE('',#186,#187,#154,.T.);
#128=EDGE_CURVE('',#188,#187,#155,.T.);
#129=EDGE_CURVE('',#185,#188,#156,.T.);
#130=EDGE_CURVE('',#186,#189,#157,.T.);
#131=EDGE_CURVE('',#189,#190,#158,.T.);
#132=EDGE_CURVE('',#187,#190,#159,.T.);
#133=EDGE_CURVE('',#189,#191,#160,.T.);
#134=EDGE_CURVE('',#191,#192,#161,.T.);
#135=EDGE_CURVE('',#190,#192,#162,.T.);
#136=EDGE_CURVE('',#191,#185,#163,.T.);
#137=EDGE_CURVE('',#192,#188,#164,.T.);
#138=EDGE_CURVE('',#193,#194,#180,.T.);
#139=EDGE_CURVE('',#193,#184,#181,.T.);
#140=EDGE_CURVE('',#194,#183,#182,.T.);
#141=EDGE_CURVE('',#195,#196,#165,.T.);
#142=EDGE_CURVE('',#196,#197,#166,.T.);
#143=EDGE_CURVE('',#198,#197,#167,.T.);
#144=EDGE_CURVE('',#195,#198,#168,.T.);
#145=EDGE_CURVE('',#196,#199,#169,.T.);
#146=EDGE_CURVE('',#199,#200,#170,.T.);
#147=EDGE_CURVE('',#197,#200,#171,.T.);
#148=EDGE_CURVE('',#199,#201,#172,.T.);
#149=EDGE_CURVE('',#201,#202,#173,.T.);
#150=EDGE_CURVE('',#200,#202,#174,.T.);
#151=EDGE_CURVE('',#201,#195,#175,.T.);
#152=EDGE_CURVE('',#202,#198,#176,.T.);
#153=B_SPLINE_CURVE_WITH_KNOTS('',1,(#375,#376),.UNSPECIFIED.,.F.,.F.,(2,
2),(-600.,-450.),.UNSPECIFIED.);
#154=B_SPLINE_CURVE_WITH_KNOTS('',1,(#377,#378),.UNSPECIFIED.,.F.,.F.,(2,
2),(0.,13.),.UNSPECIFIED.);
#155=B_SPLINE_CURVE_WITH_KNOTS('',1,(#379,#380),.UNSPECIFIED.,.F.,.F.,(2,
2),(-600.,-450.),.UNSPECIFIED.);
#156=B_SPLINE_CURVE_WITH_KNOTS('',1,(#381,#382),.UNSPECIFIED.,.F.,.F.,(2,
2),(0.,13.),.UNSPECIFIED.);
#157=B_SPLINE_CURVE_WITH_KNOTS('',1,(#383,#384),.UNSPECIFIED.,.F.,.F.,(2,
2),(-450.,-300.),.UNSPECIFIED.);
#158=B_SPLINE_CURVE_WITH_KNOTS('',1,(#385,#386),.UNSPECIFIED.,.F.,.F.,(2,
2),(0.,13.),.UNSPECIFIED.);
#159=B_SPLINE_CURVE_WITH_KNOTS('',1,(#387,#388),.UNSPECIFIED.,.F.,.F.,(2,
2),(-450.,-300.),.UNSPECIFIED.);
#160=B_SPLINE_CURVE_WITH_KNOTS('',1,(#389,#390),.UNSPECIFIED.,.F.,.F.,(2,
2),(-300.,-150.),.UNSPECIFIED.);
#161=B_SPLINE_CURVE_WITH_KNOTS('',1,(#391,#392),.UNSPECIFIED.,.F.,.F.,(2,
2),(0.,13.),.UNSPECIFIED.);
#162=B_SPLINE_CURVE_WITH_KNOTS('',1,(#393,#394),.UNSPECIFIED.,.F.,.F.,(2,
2),(-300.,-150.),.UNSPECIFIED.);
#163=B_SPLINE_CURVE_WITH_KNOTS('',1,(#395,#396),.UNSPECIFIED.,.F.,.F.,(2,
2),(-150.,0.),.UNSPECIFIED.);
#164=B_SPLINE_CURVE_WITH_KNOTS('',1,(#397,#398),.UNSPECIFIED.,.F.,.F.,(2,
2),(-150.,0.),.UNSPECIFIED.);
#165=B_SPLINE_CURVE_WITH_KNOTS('',1,(#425,#426),.UNSPECIFIED.,.F.,.F.,(2,
2),(13.,137.),.UNSPECIFIED.);
#166=B_SPLINE_CURVE_WITH_KNOTS('',1,(#427,#428),.UNSPECIFIED.,.F.,.F.,(2,
2),(0.,50.),.UNSPECIFIED.);
#167=B_SPLINE_CURVE_WITH_KNOTS('',1,(#429,#430),.UNSPECIFIED.,.F.,.F.,(2,
2),(13.,137.),.UNSPECIFIED.);
#168=B_SPLINE_CURVE_WITH_KNOTS('',1,(#431,#432),.UNSPECIFIED.,.F.,.F.,(2,
2),(0.,50.),.UNSPECIFIED.);
#169=B_SPLINE_CURVE_WITH_KNOTS('',1,(#433,#434),.UNSPECIFIED.,.F.,.F.,(2,
2),(137.,261.),.UNSPECIFIED.);
#170=B_SPLINE_CURVE_WITH_KNOTS('',1,(#435,#436),.UNSPECIFIED.,.F.,.F.,(2,
2),(0.,50.),.UNSPECIFIED.);
#171=B_SPLINE_CURVE_WITH_KNOTS('',1,(#437,#438),.UNSPECIFIED.,.F.,.F.,(2,
2),(137.,261.),.UNSPECIFIED.);
#172=B_SPLINE_CURVE_WITH_KNOTS('',1,(#439,#440),.UNSPECIFIED.,.F.,.F.,(2,
2),(261.,385.),.UNSPECIFIED.);
#173=B_SPLINE_CURVE_WITH_KNOTS('',1,(#441,#442),.UNSPECIFIED.,.F.,.F.,(2,
2),(0.,50.),.UNSPECIFIED.);
#174=B_SPLINE_CURVE_WITH_KNOTS('',1,(#443,#444),.UNSPECIFIED.,.F.,.F.,(2,
2),(261.,385.),.UNSPECIFIED.);
#175=B_SPLINE_CURVE_WITH_KNOTS('',1,(#445,#446),.UNSPECIFIED.,.F.,.F.,(2,
2),(385.,509.),.UNSPECIFIED.);
#176=B_SPLINE_CURVE_WITH_KNOTS('',1,(#447,#448),.UNSPECIFIED.,.F.,.F.,(2,
2),(385.,509.),.UNSPECIFIED.);
#177=(
BOUNDED_CURVE()
B_SPLINE_CURVE(2,(#363,#364,#365,#366,#367),.UNSPECIFIED.,.F.,.F.)
B_SPLINE_CURVE_WITH_KNOTS((3,2,3),(0.,12.5663706143592,25.1327412287183),
 .UNSPECIFIED.)
CURVE()
GEOMETRIC_REPRESENTATION_ITEM()
RATIONAL_B_SPLINE_CURVE((1.,0.707106781186548,1.,0.707106781186548,1.))
REPRESENTATION_ITEM('')
);
#178=(
BOUNDED_CURVE()
B_SPLINE_CURVE(1,(#368,#369),.UNSPECIFIED.,.F.,.F.)
B_SPLINE_CURVE_WITH_KNOTS((2,2),(0.,5.),.UNSPECIFIED.)
CURVE()
GEOMETRIC_REPRESENTATION_ITEM()
RATIONAL_B_SPLINE_CURVE((1.,1.))
REPRESENTATION_ITEM('')
);
#179=(
BOUNDED_CURVE()
B_SPLINE_CURVE(2,(#370,#371,#372,#373,#374),.UNSPECIFIED.,.F.,.F.)
B_SPLINE_CURVE_WITH_KNOTS((3,2,3),(0.,12.5663706143592,25.1327412287183),
 .UNSPECIFIED.)
CURVE()
GEOMETRIC_REPRESENTATION_ITEM()
RATIONAL_B_SPLINE_CURVE((1.,0.707106781186548,1.,0.707106781186548,1.))
REPRESENTATION_ITEM('')
);
#180=(
BOUNDED_CURVE()
B_SPLINE_CURVE(1,(#399,#400),.UNSPECIFIED.,.F.,.F.)
B_SPLINE_CURVE_WITH_KNOTS((2,2),(0.,5.),.UNSPECIFIED.)
CURVE()
GEOMETRIC_REPRESENTATION_ITEM()
RATIONAL_B_SPLINE_CURVE((1.,1.))
REPRESENTATION_ITEM('')
);
#181=(
BOUNDED_CURVE()
B_SPLINE_CURVE(2,(#401,#402,#403,#404,#405),.UNSPECIFIED.,.F.,.F.)
B_SPLINE_CURVE_WITH_KNOTS((3,2,3),(25.1327412287183,37.6991118430775,50.2654824574367),
 .UNSPECIFIED.)
CURVE()
GEOMETRIC_REPRESENTATION_ITEM()
RATIONAL_B_SPLINE_CURVE((1.,0.707106781186548,1.,0.707106781186548,1.))
REPRESENTATION_ITEM('')
);
#182=(
BOUNDED_CURVE()
B_SPLINE_CURVE(2,(#406,#407,#408,#409,#410),.UNSPECIFIED.,.F.,.F.)
B_SPLINE_CURVE_WITH_KNOTS((3,2,3),(25.1327412287183,37.6991118430775,50.2654824574367),
 .UNSPECIFIED.)
CURVE()
GEOMETRIC_REPRESENTATION_ITEM()
RATIONAL_B_SPLINE_CURVE((1.,0.707106781186548,1.,0.707106781186548,1.))
REPRESENTATION_ITEM('')
);
#183=VERTEX_POINT('',#351);
#184=VERTEX_POINT('',#352);
#185=VERTEX_POINT('',#353);
#186=VERTEX_POINT('',#354);
#187=VERTEX_POINT('',#355);
#188=VERTEX_POINT('',#356);
#189=VERTEX_POINT('',#357);
#190=VERTEX_POINT('',#358);
#191=VERTEX_POINT('',#359);
#192=VERTEX_POINT('',#360);
#193=VERTEX_POINT('',#361);
#194=VERTEX_POINT('',#362);
#195=VERTEX_POINT('',#417);
#196=VERTEX_POINT('',#418);
#197=VERTEX_POINT('',#419);
#198=VERTEX_POINT('',#420);
#199=VERTEX_POINT('',#421);
#200=VERTEX_POINT('',#422);
#201=VERTEX_POINT('',#423);
#202=VERTEX_POINT('',#424);
#203=CYLINDRICAL_SURFACE('',#307,8.00000000000142);
#204=CYLINDRICAL_SURFACE('',#314,7.99999999999858);
#205=PLANE('',#306);
#206=PLANE('',#308);
#207=PLANE('',#309);
#208=PLANE('',#310);
#209=PLANE('',#311);
#210=PLANE('',#312);
#211=PLANE('',#313);
#212=PLANE('',#315);
#213=PLANE('',#316);
#214=PLANE('',#317);
#215=PLANE('',#318);
#216=PLANE('',#319);
#217=PLANE('',#320);
#218=SHAPE_DEFINITION_REPRESENTATION(#219,#304);
#219=PRODUCT_DEFINITION_SHAPE('Document','',#221);
#220=PRODUCT_DEFINITION_CONTEXT('3D Mechanical Parts',#293,'design');
#221=PRODUCT_DEFINITION('A','First version',#263,#220);
#222=DATE_TIME_ROLE('classification_date');
#223=DATE_TIME_ROLE('creation_date');
#224=APPLIED_DATE_AND_TIME_ASSIGNMENT(#248,#222,(#227));
#225=APPLIED_DATE_AND_TIME_ASSIGNMENT(#250,#223,(#221));
#226=SECURITY_CLASSIFICATION_LEVEL('unclassified');
#227=SECURITY_CLASSIFICATION('A','Security for version',#226);
#228=APPLIED_SECURITY_CLASSIFICATION_ASSIGNMENT(#227,(#263));
#229=APPROVAL_ROLE('Version approval');
#230=APPROVAL_ROLE('Version Security approval');
#231=APPROVAL_ROLE('Definition approval');
#232=APPROVAL_PERSON_ORGANIZATION(#281,#257,#229);
#233=APPROVAL_PERSON_ORGANIZATION(#282,#258,#230);
#234=APPROVAL_PERSON_ORGANIZATION(#285,#259,#231);
#235=COORDINATED_UNIVERSAL_TIME_OFFSET(5,0,.BEHIND.);
#236=LOCAL_TIME(0,0,0.,#235);
#237=LOCAL_TIME(0,0,0.,#235);
#238=LOCAL_TIME(0,0,0.,#235);
#239=LOCAL_TIME(0,0,0.,#235);
#240=LOCAL_TIME(0,0,0.,#235);
#241=CALENDAR_DATE(1999,1,1);
#242=CALENDAR_DATE(1999,1,1);
#243=CALENDAR_DATE(1999,1,1);
#244=CALENDAR_DATE(1999,1,1);
#245=CALENDAR_DATE(1999,1,1);
#246=DATE_AND_TIME(#241,#236);
#247=DATE_AND_TIME(#242,#237);
#248=DATE_AND_TIME(#243,#238);
#249=DATE_AND_TIME(#244,#239);
#250=DATE_AND_TIME(#245,#240);
#251=APPROVAL_DATE_TIME(#246,#257);
#252=APPROVAL_DATE_TIME(#247,#258);
#253=APPROVAL_DATE_TIME(#249,#259);
#254=APPROVAL_STATUS('not_yet_approved');
#255=APPROVAL_STATUS('not_yet_approved');
#256=APPROVAL_STATUS('approved');
#257=APPROVAL(#254,'Version approval');
#258=APPROVAL(#255,'Version Security approval');
#259=APPROVAL(#256,'Definition approval');
#260=APPLIED_APPROVAL_ASSIGNMENT(#257,(#263));
#261=APPLIED_APPROVAL_ASSIGNMENT(#258,(#227));
#262=APPLIED_APPROVAL_ASSIGNMENT(#259,(#221));
#263=PRODUCT_DEFINITION_FORMATION_WITH_SPECIFIED_SOURCE('A',
'First version',#295,.MADE.);
#264=PERSON_AND_ORGANIZATION_ROLE('design_owner');
#265=PERSON_AND_ORGANIZATION_ROLE('creator');
#266=PERSON_AND_ORGANIZATION_ROLE('design_supplier');
#267=PERSON_AND_ORGANIZATION_ROLE('classification_officer');
#268=PERSON_AND_ORGANIZATION_ROLE('creator');
#269=ORGANIZATION('STI','lab','lab');
#270=ORGANIZATION('STI','unknown','unknown');
#271=ORGANIZATION('STI','unknown','unknown');
#272=ORGANIZATION('STI','unknown','unknown');
#273=ORGANIZATION('STI','unknown','unknown');
#274=ORGANIZATION('STI','unknown','unknown');
#275=ORGANIZATION('STI','unknown','unknown');
#276=PERSON('1','Box','vc60',$,$,$);
#277=PERSON('2','last','first',$,$,$);
#278=PERSON('3','President','Mr.',$,$,$);
#279=PERSON_AND_ORGANIZATION(#276,#269);
#280=PERSON_AND_ORGANIZATION(#277,#270);
#281=PERSON_AND_ORGANIZATION(#278,#271);
#282=PERSON_AND_ORGANIZATION(#278,#272);
#283=PERSON_AND_ORGANIZATION(#278,#273);
#284=PERSON_AND_ORGANIZATION(#277,#274);
#285=PERSON_AND_ORGANIZATION(#278,#275);
#286=APPLIED_PERSON_AND_ORGANIZATION_ASSIGNMENT(#279,#264,(#295));
#287=APPLIED_PERSON_AND_ORGANIZATION_ASSIGNMENT(#280,#265,(#263));
#288=APPLIED_PERSON_AND_ORGANIZATION_ASSIGNMENT(#280,#266,(#263));
#289=APPLIED_PERSON_AND_ORGANIZATION_ASSIGNMENT(#283,#267,(#227));
#290=APPLIED_PERSON_AND_ORGANIZATION_ASSIGNMENT(#284,#268,(#221));
#291=PRODUCT_RELATED_PRODUCT_CATEGORY('detail','detail',(#295));
#292=APPLICATION_PROTOCOL_DEFINITION('International Standard',
'config_control_design',1994,#293);
#293=APPLICATION_CONTEXT(
'configuration controlled 3d designs of mechanical parts and assemblie
s');
#294=PRODUCT_CONTEXT('3D Mechanical Parts',#293,'mechanical');
#295=PRODUCT('Document','Document','Rhino converted to STEP',(#294));
#296=(
LENGTH_UNIT()
NAMED_UNIT(*)
SI_UNIT(.MILLI.,.METRE.)
);
#297=(
NAMED_UNIT(*)
PLANE_ANGLE_UNIT()
SI_UNIT($,.RADIAN.)
);
#298=DIMENSIONAL_EXPONENTS(0.,0.,0.,0.,0.,0.,0.);
#299=PLANE_ANGLE_MEASURE_WITH_UNIT(PLANE_ANGLE_MEASURE(0.01745329252),#297);
#300=(
CONVERSION_BASED_UNIT('DEGREES',#299)
NAMED_UNIT(#298)
PLANE_ANGLE_UNIT()
);
#301=(
NAMED_UNIT(*)
SI_UNIT($,.STERADIAN.)
SOLID_ANGLE_UNIT()
);
#302=UNCERTAINTY_MEASURE_WITH_UNIT(LENGTH_MEASURE(0.001),#296,
'DISTANCE_ACCURACY_VALUE',
'Maximum model space distance between geometric entities at asserted c
onnectivities');
#303=(
GEOMETRIC_REPRESENTATION_CONTEXT(3)
GLOBAL_UNCERTAINTY_ASSIGNED_CONTEXT((#302))
GLOBAL_UNIT_ASSIGNED_CONTEXT((#301,#300,#296))
REPRESENTATION_CONTEXT('ID1','3D')
);
#304=SHAPE_REPRESENTATION('Document',(#305,#321),#303);
#305=AXIS2_PLACEMENT_3D('',#341,#322,#323);
#306=AXIS2_PLACEMENT_3D('',#342,#324,$);
#307=AXIS2_PLACEMENT_3D('',#343,#325,$);
#308=AXIS2_PLACEMENT_3D('',#344,#326,$);
#309=AXIS2_PLACEMENT_3D('',#345,#327,$);
#310=AXIS2_PLACEMENT_3D('',#346,#328,$);
#311=AXIS2_PLACEMENT_3D('',#347,#329,$);
#312=AXIS2_PLACEMENT_3D('',#348,#330,$);
#313=AXIS2_PLACEMENT_3D('',#349,#331,$);
#314=AXIS2_PLACEMENT_3D('',#350,#332,$);
#315=AXIS2_PLACEMENT_3D('',#411,#333,$);
#316=AXIS2_PLACEMENT_3D('',#412,#334,$);
#317=AXIS2_PLACEMENT_3D('',#413,#335,$);
#318=AXIS2_PLACEMENT_3D('',#414,#336,$);
#319=AXIS2_PLACEMENT_3D('',#415,#337,$);
#320=AXIS2_PLACEMENT_3D('',#416,#338,$);
#321=AXIS2_PLACEMENT_3D('',#449,#339,#340);
#322=DIRECTION('',(0.,0.,1.));
#323=DIRECTION('',(1.,0.,0.));
#324=DIRECTION('',(1.,0.,0.));
#325=DIRECTION('',(-1.,0.,0.));
#326=DIRECTION('',(0.,0.,1.));
#327=DIRECTION('',(0.,-1.,0.));
#328=DIRECTION('',(0.,0.,-1.));
#329=DIRECTION('',(0.,1.,0.));
#330=DIRECTION('',(-1.,0.,0.));
#331=DIRECTION('',(1.,0.,0.));
#332=DIRECTION('',(-1.,0.,0.));
#333=DIRECTION('',(0.,1.,0.));
#334=DIRECTION('',(0.,0.,-1.));
#335=DIRECTION('',(0.,-1.,0.));
#336=DIRECTION('',(0.,0.,1.));
#337=DIRECTION('',(1.,0.,0.));
#338=DIRECTION('',(-1.,0.,0.));
#339=DIRECTION('',(0.,0.,1.));
#340=DIRECTION('',(1.,0.,0.));
#341=CARTESIAN_POINT('',(0.,0.,0.));
#342=CARTESIAN_POINT('',(553.169904252832,23943.0355947794,35.9270038164264));
#343=CARTESIAN_POINT('',(555.669904252832,23934.8755947794,27.7670038164278));
#344=CARTESIAN_POINT('',(545.169904252832,24009.8755947794,102.767003816426));
#345=CARTESIAN_POINT('',(545.169904252832,23859.8755947794,102.767003816426));
#346=CARTESIAN_POINT('',(545.169904252832,23859.8755947794,-47.2329961835736));
#347=CARTESIAN_POINT('',(545.169904252832,24009.8755947794,-47.2329961835736));
#348=CARTESIAN_POINT('',(545.169904252832,24009.8755947794,-47.2329961835736));
#349=CARTESIAN_POINT('',(558.169904252832,24009.8755947794,-47.2329961835737));
#350=CARTESIAN_POINT('',(555.669904252832,23934.8755947794,27.7670038164278));
#351=CARTESIAN_POINT('',(553.169904252832,23934.8755947794,19.7670038164264));
#352=CARTESIAN_POINT('',(558.169904252832,23934.8755947794,19.7670038164264));
#353=CARTESIAN_POINT('',(545.169904252832,24009.8755947794,102.767003816426));
#354=CARTESIAN_POINT('',(545.169904252832,23859.8755947794,102.767003816426));
#355=CARTESIAN_POINT('',(558.169904252832,23859.8755947794,102.767003816426));
#356=CARTESIAN_POINT('',(558.169904252832,24009.8755947794,102.767003816426));
#357=CARTESIAN_POINT('',(545.169904252832,23859.8755947794,-47.2329961835736));
#358=CARTESIAN_POINT('',(558.169904252832,23859.8755947794,-47.2329961835736));
#359=CARTESIAN_POINT('',(545.169904252832,24009.8755947794,-47.2329961835736));
#360=CARTESIAN_POINT('',(558.169904252832,24009.8755947794,-47.2329961835736));
#361=CARTESIAN_POINT('',(558.169904252832,23934.8755947794,35.7670038164264));
#362=CARTESIAN_POINT('',(553.169904252832,23934.8755947794,35.7670038164264));
#363=CARTESIAN_POINT('',(558.169904252832,23934.8755947794,19.7670038164264));
#364=CARTESIAN_POINT('',(558.169904252832,23926.8755947794,19.7670038164264));
#365=CARTESIAN_POINT('',(558.169904252832,23926.8755947794,27.7670038164264));
#366=CARTESIAN_POINT('',(558.169904252832,23926.8755947794,35.7670038164264));
#367=CARTESIAN_POINT('',(558.169904252832,23934.8755947794,35.7670038164264));
#368=CARTESIAN_POINT('',(558.169904252832,23934.8755947794,19.7670038164264));
#369=CARTESIAN_POINT('',(553.169904252832,23934.8755947794,19.7670038164264));
#370=CARTESIAN_POINT('',(553.169904252832,23934.8755947794,19.7670038164264));
#371=CARTESIAN_POINT('',(553.169904252832,23926.8755947794,19.7670038164264));
#372=CARTESIAN_POINT('',(553.169904252832,23926.8755947794,27.7670038164264));
#373=CARTESIAN_POINT('',(553.169904252832,23926.8755947794,35.7670038164264));
#374=CARTESIAN_POINT('',(553.169904252832,23934.8755947794,35.7670038164264));
#375=CARTESIAN_POINT('',(545.169904252832,24009.8755947794,102.767003816426));
#376=CARTESIAN_POINT('',(545.169904252832,23859.8755947794,102.767003816426));
#377=CARTESIAN_POINT('',(545.169904252832,23859.8755947794,102.767003816426));
#378=CARTESIAN_POINT('',(558.169904252832,23859.8755947794,102.767003816426));
#379=CARTESIAN_POINT('',(558.169904252832,24009.8755947794,102.767003816426));
#380=CARTESIAN_POINT('',(558.169904252832,23859.8755947794,102.767003816426));
#381=CARTESIAN_POINT('',(545.169904252832,24009.8755947794,102.767003816426));
#382=CARTESIAN_POINT('',(558.169904252832,24009.8755947794,102.767003816426));
#383=CARTESIAN_POINT('',(545.169904252832,23859.8755947794,102.767003816426));
#384=CARTESIAN_POINT('',(545.169904252832,23859.8755947794,-47.2329961835736));
#385=CARTESIAN_POINT('',(545.169904252832,23859.8755947794,-47.2329961835736));
#386=CARTESIAN_POINT('',(558.169904252832,23859.8755947794,-47.2329961835736));
#387=CARTESIAN_POINT('',(558.169904252832,23859.8755947794,102.767003816426));
#388=CARTESIAN_POINT('',(558.169904252832,23859.8755947794,-47.2329961835736));
#389=CARTESIAN_POINT('',(545.169904252832,23859.8755947794,-47.2329961835736));
#390=CARTESIAN_POINT('',(545.169904252832,24009.8755947794,-47.2329961835736));
#391=CARTESIAN_POINT('',(545.169904252832,24009.8755947794,-47.2329961835736));
#392=CARTESIAN_POINT('',(558.169904252832,24009.8755947794,-47.2329961835736));
#393=CARTESIAN_POINT('',(558.169904252832,23859.8755947794,-47.2329961835736));
#394=CARTESIAN_POINT('',(558.169904252832,24009.8755947794,-47.2329961835736));
#395=CARTESIAN_POINT('',(545.169904252832,24009.8755947794,-47.2329961835736));
#396=CARTESIAN_POINT('',(545.169904252832,24009.8755947794,102.767003816426));
#397=CARTESIAN_POINT('',(558.169904252832,24009.8755947794,-47.2329961835736));
#398=CARTESIAN_POINT('',(558.169904252832,24009.8755947794,102.767003816426));
#399=CARTESIAN_POINT('',(558.169904252832,23934.8755947794,35.7670038164264));
#400=CARTESIAN_POINT('',(553.169904252832,23934.8755947794,35.7670038164264));
#401=CARTESIAN_POINT('',(558.169904252832,23934.8755947794,35.7670038164264));
#402=CARTESIAN_POINT('',(558.169904252832,23942.8755947794,35.7670038164264));
#403=CARTESIAN_POINT('',(558.169904252832,23942.8755947794,27.7670038164264));
#404=CARTESIAN_POINT('',(558.169904252832,23942.8755947794,19.7670038164264));
#405=CARTESIAN_POINT('',(558.169904252832,23934.8755947794,19.7670038164264));
#406=CARTESIAN_POINT('',(553.169904252832,23934.8755947794,35.7670038164264));
#407=CARTESIAN_POINT('',(553.169904252832,23942.8755947794,35.7670038164264));
#408=CARTESIAN_POINT('',(553.169904252832,23942.8755947794,27.7670038164264));
#409=CARTESIAN_POINT('',(553.169904252832,23942.8755947794,19.7670038164264));
#410=CARTESIAN_POINT('',(553.169904252832,23934.8755947794,19.7670038164264));
#411=CARTESIAN_POINT('',(545.169904252832,23996.8755947794,89.7670038164264));
#412=CARTESIAN_POINT('',(545.169904252832,23996.8755947794,-34.2329961835736));
#413=CARTESIAN_POINT('',(545.169904252832,23872.8755947794,-34.2329961835736));
#414=CARTESIAN_POINT('',(545.169904252832,23872.8755947794,89.7670038164264));
#415=CARTESIAN_POINT('',(545.169904252832,23996.8755947794,89.7670038164264));
#416=CARTESIAN_POINT('',(495.169904252832,23996.8755947794,89.7670038164264));
#417=CARTESIAN_POINT('',(545.169904252832,23996.8755947794,89.7670038164264));
#418=CARTESIAN_POINT('',(545.169904252832,23996.8755947794,-34.2329961835736));
#419=CARTESIAN_POINT('',(495.169904252832,23996.8755947794,-34.2329961835736));
#420=CARTESIAN_POINT('',(495.169904252832,23996.8755947794,89.7670038164264));
#421=CARTESIAN_POINT('',(545.169904252832,23872.8755947794,-34.2329961835736));
#422=CARTESIAN_POINT('',(495.169904252832,23872.8755947794,-34.2329961835736));
#423=CARTESIAN_POINT('',(545.169904252832,23872.8755947794,89.7670038164264));
#424=CARTESIAN_POINT('',(495.169904252832,23872.8755947794,89.7670038164264));
#425=CARTESIAN_POINT('',(545.169904252832,23996.8755947794,89.7670038164264));
#426=CARTESIAN_POINT('',(545.169904252832,23996.8755947794,-34.2329961835736));
#427=CARTESIAN_POINT('',(545.169904252832,23996.8755947794,-34.2329961835736));
#428=CARTESIAN_POINT('',(495.169904252832,23996.8755947794,-34.2329961835736));
#429=CARTESIAN_POINT('',(495.169904252832,23996.8755947794,89.7670038164264));
#430=CARTESIAN_POINT('',(495.169904252832,23996.8755947794,-34.2329961835736));
#431=CARTESIAN_POINT('',(545.169904252832,23996.8755947794,89.7670038164264));
#432=CARTESIAN_POINT('',(495.169904252832,23996.8755947794,89.7670038164264));
#433=CARTESIAN_POINT('',(545.169904252832,23996.8755947794,-34.2329961835736));
#434=CARTESIAN_POINT('',(545.169904252832,23872.8755947794,-34.2329961835736));
#435=CARTESIAN_POINT('',(545.169904252832,23872.8755947794,-34.2329961835736));
#436=CARTESIAN_POINT('',(495.169904252832,23872.8755947794,-34.2329961835736));
#437=CARTESIAN_POINT('',(495.169904252832,23996.8755947794,-34.2329961835736));
#438=CARTESIAN_POINT('',(495.169904252832,23872.8755947794,-34.2329961835736));
#439=CARTESIAN_POINT('',(545.169904252832,23872.8755947794,-34.2329961835736));
#440=CARTESIAN_POINT('',(545.169904252832,23872.8755947794,89.7670038164264));
#441=CARTESIAN_POINT('',(545.169904252832,23872.8755947794,89.7670038164264));
#442=CARTESIAN_POINT('',(495.169904252832,23872.8755947794,89.7670038164264));
#443=CARTESIAN_POINT('',(495.169904252832,23872.8755947794,-34.2329961835736));
#444=CARTESIAN_POINT('',(495.169904252832,23872.8755947794,89.7670038164264));
#445=CARTESIAN_POINT('',(545.169904252832,23872.8755947794,89.7670038164264));
#446=CARTESIAN_POINT('',(545.169904252832,23996.8755947794,89.7670038164264));
#447=CARTESIAN_POINT('',(495.169904252832,23872.8755947794,89.7670038164264));
#448=CARTESIAN_POINT('',(495.169904252832,23996.8755947794,89.7670038164264));
#449=CARTESIAN_POINT('',(0.,0.,0.));
ENDSEC;
END-ISO-10303-21;
